Porcupine Tree Logo Welcome to the Porcupine Tree Forum 1.0 Archive! This is a read-only archive of the PTF 1.0
 
Welcome, Guest. Please Login.
23. Jun 2017 at 13:14
Home Help Rules Search Login
RSS News Feed


Pages: 1
Send Topic Print
Even Less / Begining Help! (Read 771 times)
steam4449
Topic Starter Topic Starter
yhW?
***


The only Friend of
the SP 4449 who
knows PT

Posts: 458


Gender: male
Even Less / Begining Help!
19. Jan 2012 at 09:42
 
Hey everybody!
 
So, I've got every other part of Even Less figured out except for the small little solo guitar parts that Steven does in the begining riffs live. That's the only part I've having trouble with! D:
 
Could anyone possibly help me?
Back to top
 
  

I MAKE FILMS Cheesy - http://www.youtube.com/4449steam
Email View Profile WWW steam4449 steam4449 steam4449@yahoo.com PNWR1851@aol.com   IP Logged
edley
PTF Junior
**




Posts: 151


Re: Even Less / Begining Help!
Reply #1 - 20. Jan 2012 at 17:18
 
Olf of Warsaza?  Can you provide the time where this occurs in the song.  I think you are referring to the short lick right before they go into the first verse and then its repeated before the second verse?  I know this song pretty well but I have never tabbed it.  Maybe I could make a quick video of it for you. Edley
Back to top
 
  
View Profile   IP Logged
nikolaia
PTF Newbie
*




Posts: 22


Re: Even Less / Begining Help!
Reply #2 - 22. Jan 2012 at 17:07
 
|---14-14-14-14^15-14---------------------------------------------------
|---------------------------10-12^13-12-10-8-10--------------------------
|-----------------------------------------------------10-8---8-8--8-8-10----
|----------------------------------------------------------------------------
|-----------------------------------------------------------------------------
|----------------------------------------------------------------------------
You can play these notes on different strings to make it easier, i was using an acoustic.
And on the part where he's repeating the eighth fret, sometimes he does natural harmonics on the twelfth
 
|--------------------------------------------12-------12-------12---------
|-----------------------------------------------12-------12----------------
|--------------------------------------------------12-------12----12--8-10---
|----------------------------------------------------------------------------
|----------------------------------------------------------------------------
|----------------------------------------------------------------------------
 
Also, here's this video i made
http://www.youtube.com/watch?v=mxSQVDKGgAI&feature=g-upl&context=G2e81b6 9AUAAAAAAADAA
Back to top
 
  
View Profile   IP Logged
Pages: 1
Send Topic Print